Big Sugar All Hell For A Basement Tab
Home ] Up ] [ Big Sugar All Hell For A Basement Tab ] Big Sugar Nicotina Tab ]
 

Big Sugar All Hell For A Basement Tab

Big Sugar All Hell For A Basement Tab

Song: All Hell For A Basement
Band: Big Sugar
Tabbed By: Lonnie Hunter

Standard tuning

Regular play
Sometimes these 2 lines alternate during the song
Listen for them

--------------------------------------------------------
--------------------------------------------------------
--------------------------------------------------------
------------------3--5--3-----------3--5--3-------------
-----------3--5------------5--3--5-----------5--3--5----
--3--5--6-----------------------------------------------

--------------------------------------------------------
--------------------------------------------------------
--------------------------------------------------------
------------------3--5--3-----------3--5--3-------------
-----------3--5------------5--3--5-----------5--3--1----
--3--5--6-----------------------------------------------

Same notes in a higher octave
this occurs later in the song
--------------------------------------------------------
-----------------6--8--6-----------6--8--6--------------
-----------5--7-----------7--5--7-----------7--5--7-----
--5--7--8-----------------------------------------------
--------------------------------------------------------
--------------------------------------------------------

-----------------6-----------------6--------------------
--------------------8--6--------------8--6--------------
-----------5--7-----------7--5--7-----------7--5--3-----
--5--7--8-----------------------------------------------
--------------------------------------------------------
--------------------------------------------------------

Home ] Up ] [ Big Sugar All Hell For A Basement Tab ] Big Sugar Nicotina Tab ]

Looking For Canadian Actors Click Here

www.cctranslation.com

Click Here For Drums, Guitars, Banjos, Microphones, Violins, Timpani's or Pianos

All The Instruments at the Guaranteed Lowest Prices

Find your Favourite Drummer here at Every Drummer (dot) Com

Find Your Favourite Guitarist here at Every Guitarist (dot) Com

Click Here For Sunglasses or here for Motorcycle Sunglasses