Finger Eleven Drag you Down Tab
Home ] Up ] Finger Eleven Bones and Joints Tab ] [ Finger Eleven Drag you Down Tab ] Finger Eleven First Time Tab ]
 

Finger Eleven Drag you Down Tab

Finger Eleven Drag You Down Tab

Finger Eleven
The Greyist of Blue Skies
Drag You Down
tabbed by Mitch Hagglund {i_play_guitar04@hotmail.com}

This song iz kinda ez but here it iz...


INTRO 1
e|----------------|----------------|(REPETE 4 TIMES)
B|----------------|----------------|
G|---2--------0---|---2--------2---|
D|----------------|----------------|
A|-0---3--1-------|-0---3--1-------|
E|----------------|----------------|

INTRO 2(HEVY PART DISTORTION)
e|------------------|(REPETE 4 TIMES)
B|---3333-----3-3---|
G|------------------|
D|------------------|
A|-0------0-1-------|
E|-0------0-1-------|

When words start onlt the bass plays I think then the choris iz like 
this.....


e|-------------|(DISTORTION)
B|-------------|
G|-------------|
D|-4444-6666---|
A|-4444-6666---|
E|-4444-6666---|

Free Finger Eleven Guitar Tab Videos
Click Here
 

Home ] Up ] Finger Eleven Bones and Joints Tab ] [ Finger Eleven Drag you Down Tab ] Finger Eleven First Time Tab ]

Looking For Canadian Actors Click Here

www.cctranslation.com

Click Here For Drums, Guitars, Banjos, Microphones, Violins, Timpani's or Pianos

All The Instruments at the Guaranteed Lowest Prices

Find your Favourite Drummer here at Every Drummer (dot) Com

Find Your Favourite Guitarist here at Every Guitarist (dot) Com

Click Here For Sunglasses or here for Motorcycle Sunglasses