Finger Eleven First Time Tab
Home ] Up ] Finger Eleven Bones and Joints Tab ] Finger Eleven Drag you Down Tab ] [ Finger Eleven First Time Tab ]
 

Finger Eleven First Time Tab

Finger Eleven First Time Tab

Song: First Time
Artist: Finger Eleven
Album: Greyest of Blue Skies
As tabbed by Joe Muggah

Dropped D and tuned down 1/2 step

Riff 1
eb---------------------------------------------------------
Bb---------------------------------------------------------
Gb---------------------------------------------------------
Db--3--2--x-x--x--3--2--x-x--x--3--2--x-x--x---------------
Ab--2--2--x-x--x--2--2--x-x--x--2--2--x-x--x---------------
Db--2--2--x-x--x--2--2--x-x--x--2--2--x-x--x--12-0--0-0-0--

Verse
-Sounds like a backwards guitar loop or a really wierd
pedal. I just play the bass part.

Bass Verse
Gb---------------------------------------------------------
Db---------------------------------------------------------
Ab---------------------------------------------------------
Db--2-2-2-2-2-2-2-2/12-12-12-12-12--16-16-14h16------------

Pre-Chorus
eb---------------------------------------------------------
Bb---------------------------------------------------------
Gb--------5--5-5-5--------5--5-5-5-------------------------
Db--3-3-3-3--3-3-3--3-3-3-3--3-3-3--3-3-3-3----------------
Ab--3-3-3-3--3-3-3--3-3-3-3--3-3-3--3-3-3-3----------------
Db--3-3-3-3--3-3-3--3-3-3-3--3-3-3--3-3-3-3----------------
("It's not that simple...")

Chorus
eb---------------------------------------------------------
Bb---------------------------------------------------------
Gb---------------------------------------------------------
Db--9--7--x-x--x--5--3--x-x--5--3--x-x--x--3h5--5p3--------
Ab--7--7--x-x--x--2--2--x-x--3--3--x-x--x--2----2----------
Db--7--7--x-x--x--2--2--x-x--3--3--x-x--x--2----2----------
("It feels like the first time...")

(continued)
eb---------------------------------------------------------
Bb---------------------------------------------------------
Gb---------------------------------------------------------
Db--9--7--x-x--x---9---9---3--3-3--------------------------
Ab--7--7--x-x--x--12--10---3--3-3--------------------------
Db--7--7--x-x--x---9---9---3--3-3---12-0--0-0-0------------

Bridge
eb---------------------------------------------------------
Bb---------------------------------------------------------
Gb--4-4-4-4-4-4-4-4--7-7-7-7-7-7-7-7--12-12--12-9-9-9-9----
Db--x-x-x-x-x-x-x-x--x-x-x-x-x-x-x-x---x--x---x-x-x-x-x----
Ab--2-2-2-2-2-2-2-2--5-5-5-5-5-5-5-5--10-10--10-7-7-7-7----
Db---------------------------------------------------------
("Lost in the film again...")

(continued)
eb---------------------------------------------------------
Bb---------------------------------------------------------
Gb--4-4-4-4-4-4-4-4--7-7-7-7-7-7-7-7--12-12-11--9-9--------
Db--x-x-x-x-x-x-x-x--x-x-x-x-x-x-x-x---x--x--x--x-x--------
Ab--2-2-2-2-2-2-2-2--5-5-5-5-5-5-5-5--10-10--9--7-7--------
Db---------------------------------------------------------

Riff 2
eb---------------------------------------------------------
Bb---------------------------------------------------------
Gb---------------------------------------------------------
Db--3--3-3-3-3-3-3-3-3-3-3-3-3-3-3-3-----------------------
Ab--3--3-3-3-3-3-3-3-3-3-3-3-3-3-3-3-----------------------
Db--3--3-3-3-3-3-3-3-3-3-3-3-3-3-3-3-----------------------
("Caught in my weather...")

Riff 3 (Synthasizer arranged for guitar)
eb---------------------------------------------------------
Bb---------------------------------------------------------
Gb---------------------------------------------------------
Db--2-----5---/--9-----------------------------------------
Ab--0-----3---/--7-----------------------------------------
Db---------------------------------------------------------

Solo 1 (each hit 4 times)          end on and repeat
eb--5-5--7-7--8-8--10-10--12-12--|--17-17-17-17-17-17------
Bb--x-x--x-x--x-x---x--x---x--x--|---x--x--x--x--x--x------
Gb--2-2--4-4--5-5---7--7---9--9--|--14-14-14-14-14-14------
Db-------------------------------|-------------------------
Ab-------------------------------|-------------------------
Db-------------------------------|-------------------------

Solo 2 (each hit 4 times)
eb--17-17--19-19--20-20--22-22-22-22-22-22-22-22-----------
Bb---x--x---x--x---x--x---x--x--x--x--x--x--x--x-----------
Gb--14-14--16-16--17-17--19-19-19-19-19-19-19-19-----------
Db---------------------------------------------------------
Ab---------------------------------------------------------
Db---------------------------------------------------------


Riff 1
Verse, Bass Verse
Pre-Chorus
Chorus
Riff 1
Verse, Bass Verse
Pre-Chorus
Chorus
Bridge (Guitar 1 with distortion, guitar 2 clean)
Bridge (Both guitars with distortion)
Riff 2
Riff 3
Chorus, Solo 1
Chorus, Solo 2
Riff 1
Free Finger Eleven Guitar Tab Videos
Click Here
 

Home ] Up ] Finger Eleven Bones and Joints Tab ] Finger Eleven Drag you Down Tab ] [ Finger Eleven First Time Tab ]

Looking For Canadian Actors Click Here

www.cctranslation.com

Click Here For Drums, Guitars, Banjos, Microphones, Violins, Timpani's or Pianos

All The Instruments at the Guaranteed Lowest Prices

Find your Favourite Drummer here at Every Drummer (dot) Com

Find Your Favourite Guitarist here at Every Guitarist (dot) Com

Click Here For Sunglasses or here for Motorcycle Sunglasses