Weapon Tab
Home ] Up ] [ Weapon Tab ] Fated Tab ] Hello Time Bomb Tab ]
 

Matthew Good Band Weapon Tab

Matthew Good Band Tab - Weapon Tablature

Free Matthew Good Band Guitar Tab Videos Click Here

MATTHEW GOOD 
Song: Weapon
Album: Avalanche


Tuning:
1/2 step down

Intro (Acoustic)
------------------------0--------------------------------------------x8
-------3--------0---------------0-------------------------------------
-----0--------0-------0-------0----------0--------0--------0---------0
---4--------4-------4-------4----------4--------4--------4---------4--
-5--------5-------3-------3----------2--------2--------2---------2----
-----------------------------------0--------0--------0---------3------


-------------------------0--------------
-------3--------0---------------0-------
-----0--------0-------0-------0---------
---4--------4-------4-------4-----------
-5--------5-------3-------3-------------
-----------------------------------0----


-----------------------------------------|
-----------------------------------------|
-----------------------------------------|x2
------------------------------------5~---|
-----5h777-5h7-77------5h777---5h77------|
-0-0------0--------0-0-------0-----------|


(Electric Distorted)
-------------------------------------------------------------------|
-------------------------------------------------------------------|
-------------------------------------------------------------------|x5
--------------------------------------------------5~---------------|
------5h777--5h7-------5h777--5h7------5h777--5h7-------5h777--5h7-|
--0-0------0-------0-0------0------0-0------0-------0-0------0-----|


Chorus (Acoustic)

|-0----00--0--0--|-0---0----0-0-|-0----00--0--0--|-0---0----0-0--|
|-1----11--1--1--|-1---1----1/3-|-0----00--3--0--|-0---0----0-3--|
|-0----00--0--0--|-0---0----0-0-|-0----00--0--0--|-0---0----0-0--|
|-2----22--2--2--|-2---2----2/4-|-2----22--2--2--|-2---2----2-0--|x5
|-3----33--3--3--|-3---3----3/5-|-2----22--2--2--|-2---2----2-2--|
|----------------|--------------|-0----00--0--0--|-0---0----0-3--|

 
|-0---0---00--0--|-0--0-0---0-0-|-0---0---00-0-0-|-0-------------|
|-3---3---33--3--|-3--3-3---3-3-|-1---1---11-1/3-|-0-------------|
|-0---0---00--0--|-0--0-0---0-0-|-0---0---00-0-0-|-0-------------|
|-4---4---44--4--|-4--4-4---4-4-|-2---2---22-2/4-|-2-------------|
|-5---5---55--5--|-5--5-5---5-5-|-3---3---33-3/5-|-2-------------|
|----------------|--------------|----------------|-0-------------|
                                                   again.......

Chorus (Orchestra Tabbed For Guitar)
----------------------------------------------------------------------
----------5---3 ~ ~ --------------5---3 ~ ~ --------------5---3 ~ ~ --
-----0----------------0-------0---------------0-------0---------------
--------------------4---2-------------------4---2---------------------
----------------------------------------------------------------------
--0-------------------------------------------------------------------

----------------------------------------------------------------------
----------------5---3 ~ ~ --------------5---3 ~ ~ --------------------
----0-------0---------------0-------0---------------0-----------------
--4---2-------------------4---2-------------------4---2---------------
----------------------------------------------------------------------
----------------------------------------------------------------------

----------------------------------------------------------------------
----------5---3 ~ ~ --------------5---3 ~ ~ --------------5---3 ~ ~ --
-----0----------------0-------0---------------0-------0---------------
--------------------4---2-------------------4---2---------------------
----------------------------------------------------------------------
----------------------------------------------------------------------

----------------------------------------------------------------------
----------------5---3 ~ ~ --------------5---3 ~ ~ --------------------
----0-------0---------------0-------0---------------0-----------------
--4---2-------------------4---2-------------------4---2---------------
----------------------------------------------------------------------
----------------------------------------------------------------------

----------------------------------------------------------------------
----------5---3 ~ ~ 7 ~ ~ --------------5---3 ~ ~ 7 ~ ~ --------------
-----0----------------------0-------0---------------------------------
--------------------------4---2---------------------------------------
----------------------------------------------------------------------
----------------------------------------------------------------------

Electric Clean
------------------------0-----------------------------------------------
-------3--------0---------------0--------------------------------------
-----0--------0-------0-------0--------0--------0--------0-----------0-
---4--------4-------4-------4------------4--------4--------4-------4---
-5--------5-------3-------3----------2--------2--------2---------2-----
-----------------------------------0--------0--------0---------3-------

Home ] Up ] [ Weapon Tab ] Fated Tab ] Hello Time Bomb Tab ]

Looking For Canadian Actors Click Here

www.cctranslation.com

Click Here For Drums, Guitars, Banjos, Microphones, Violins, Timpani's or Pianos

All The Instruments at the Guaranteed Lowest Prices

Find your Favourite Drummer here at Every Drummer (dot) Com

Find Your Favourite Guitarist here at Every Guitarist (dot) Com

Click Here For Sunglasses or here for Motorcycle Sunglasses