Our Lady Peace Clumsy Tab
Home ] Up ] [ Our Lady Peace Clumsy Tab ] Our Lady Peace Naveed Tab ] Our Lady Peace Superman is Dead Tab ]
 

Our Lady Peace Clumsy Tab

Our Lady Peace Clumsy Tab

Free Our Lady Peace Guitar Tab Videos Click Here

Clumsy tabliture


Intro:

E|-------------16--------------16---------------16--19--||
B|------17-19-----------17-19------------17-19----------||
G|------------------------------------------------------||
D|--19--------------18--------------19------------------||
A|------------------------------------------------------||
E|------------------------------------------------------||

Verse:

E|-----|-----|-----||
B|-----|-----|-----||
G|--3--|--1--|--4--||
D|--4--|--2--|--4--||
A|--4--|--2--|--2--||
E|--2--|--0--|-----||

Pre-Chorus:

E|-----|-----|-----|-----|-----||
B|-----|-----|-----|-----|-----||
G|-----|-----|-----|-----|-----||
D|--7--|--6--|--7--|--9--|--4--||
A|--7--|--6--|--7--|--9--|--4--||
E|--5--|--4--|--5--|--7--|--2--||

Chorus:

E|{        2x         }----------------------------------------|
B|----5---------5---4------------------------------------------|
G|-6---6---4-4---4---4--2-2XX6664-44XX------22-4-404-44--------|
D|-6-6----4--4-4---4----2-2XX6664-44XX4-44--2202-204-444-444XX-|
A|-4-----2---2-----2----0-0XX4402-22XX4-44--000----2-224-444XX-|
E|------------------------------------2-22-------------2-222XX-|

E|----------||
B|----------||
G|-22-4-404-||
D|-2202-204-||
A|-000----2-||
E|----------||


Interlude:

E|{             3X            }-------------------------------|
B|-------------10-12------------------------------------------|
G|-12--9/11--------1311-9-11---12--9/11~~~~-9/11~~~~-9~~~~~-|
D|------------------------------------------------------------|
A|------------------------------------------------------------|
E|------------------------------------------------------------|

E|---------------------------------------||
B|----------------------------777777777-||
G|-99999999-44444444-99999999------------||
D|---------------------------------------||
A|---------------------------------------||
E|---------------------------------------||

Fill 1:

E|--------------------||
B|--------------------||
G|-22-4-404-44--------||
D|-2202-204-444-444XX-||
A|-000----2-224-444XX-||
E|------------2-222XX-||

Here's The Order:

Intro - 1x(00:00)
Verse - 6x(00:13)
Pre-Chorus - 1x(00:48)
Chorus - 1x(01:04)
Verse - 4x(01:32)
Pre-Chorus - 1x(01:56)
Chorus - 1x(02:12)
Interlude - 1x(02:38)
Chorus - 1x(03:14)
Fill 1 - 8x(03:37)

Home ] Up ] [ Our Lady Peace Clumsy Tab ] Our Lady Peace Naveed Tab ] Our Lady Peace Superman is Dead Tab ]

Looking For Canadian Actors Click Here

www.cctranslation.com

Click Here For Drums, Guitars, Banjos, Microphones, Violins, Timpani's or Pianos

All The Instruments at the Guaranteed Lowest Prices

Find your Favourite Drummer here at Every Drummer (dot) Com

Find Your Favourite Guitarist here at Every Guitarist (dot) Com

Click Here For Sunglasses or here for Motorcycle Sunglasses