Our Lady Peace Superman is Dead Tab
Home ] Up ] Our Lady Peace Clumsy Tab ] Our Lady Peace Naveed Tab ] [ Our Lady Peace Superman is Dead Tab ]
 

Our Lady Peace Superman is Dead Tab

Our Lady Peace Superman is Dead Tab

Free Our Lady Peace Guitar Tab Videos Click Here

Superman's Dead
Our Lady Peace: Clumsy

Tune down half a step! (Eb Ab Db Gb)
You'll have to figure out the rhythm yourself, but it's not too hard..


Intro

Eb --1-sl/-8---7--7--7-7--10-10--10--10-9-5--5--5--8-8--8-8--10----------

Eb --7--7--7-7-10-10--10--10--10--12-12--12--12--12--8-8-8-8-8-8-8-------

Now - Aooo

Ab --------7--9--9--5-5--5-5--5-7------7-/-9-9-------------------

Eb --7--7-------------------------5--5----------8-8-8-0-8-8-8-8--


Alone.. Alone..

Eb --0-7--0-7--0-10--0-10--0-10--0-10--0-5--0-5--0-5--0-8--8-\-0--

Chorus

Ey-ah, yeah.. Superman's Dead

Ab ------------------------------------0--0-/-9--9-------------------

Eb --7--7--7--7--9--10--10--10--10--9---------------8-8-8-0-8-8-8-8--


Ey-ah, yeah.. Is it in my head

Db ----------------------------------------------0-0-/-9--7-----

Ab ------------------------------------0--0-/-9--------------9--

Eb --7--7--7--7--9--10--10--10--10--9---------------------------


Ey-ah, yeah.. We'll just laugh instead

Ab ------------------------------------0--0-/-9-----10----9--

Eb --7--7--7--7--9--10--10--10--10--9------------10-----9----


Ao-ooo, worry bout the weather..

Eb --7--7--7--7--9--10--10--10--8--8-8-8-5--5--5--


Next bit

Are you worried..

Eb --7---7--7--10--10--10--10--10--5---5--5--8-8--8--8--8--

You're happy you're in love..

Db -------------12-11--11h12-----0--2--4---4--2-/-7--

Ab --------7h9----------------0----------------------

Eb --7--7--------------------------------------------


An ordinary girl..

Db -------------12-11--11h12--------2--4---4--2-/-7--

Ab --------7h9----------------0----------------------

Eb --7--7--------------------------------------------


But ordinary's..

Db -------------12-11--------------------------

Ab --------7h9---------12----------------------

Eb --7--7------------------12-----0-8-0-8-0-8--


Now-Aoo.. After 2nd Chorus


Db ----0h2h4--0-0-0-0-0-0-0-2---0h2h4-------------------

Ab --2------------------------0--------3-3-3-3-3-3-3-5--

Eb -----------------------------------------------------


Why-ee-ai..

Ab -----0-/-10------0-/-9------0-/-8------0-/-7--

Eb --3-----------2----------1----------0---------


Doesn't anybody ever know..

This part is played on a 5-string bass, so the astericked note is one
octave higher. If you have a 5-string, you can play that, but if not,
it's easiest to just stick to this. Tuning your Eb down to a C# is NOT fun
for this song!

Ab ----------------*5*-5--5--5-5------------------------

Eb --3--3--3--3-3-----------------5--5--5--0---0--0--0--


Ab ----------------*5*-5--5--5-5-------------------------------

Eb --3--3--3--3-3-----------------5--5--5--5--5-7--7--7--7--7--


Subway..

Ab -----0-/-10-9-10--5--/-10-9-10----------------------

Eb --3--------------------------------5-5-5-3-5-5-5-0--0--



Gb ----------------------------------------------9--7-9--7----------

Db -----------------------------------------------------------9-7-\-0--

Ab -----0-/-10-9-10--5--/-10-9-10-----------------------------------

Mess Around with this part.

Eb --3--------------------------------5-5-5-3-5-5-5--------------------


Db ----------------------------------7---7---9--9--9-9-7----

Ab -----0-/-10-9-10--5--/-10-9-10----------------------9--

Eb --3----------------------------------------------------


Gb -----------------------------------------------9-7----------

Db -----------------------------------7---7---9-------9-7------

Ab -----0-/-10-9-10--5--/-10-9-10-----------------------9-7--

Eb --3------------------------------------------------------


Db ---------------------------------------------------------4-4-7-7--

Ab -----0-/-10-9-10--5--/-10-9-10-------------5-5-7-7----------

Eb --3--------------------------------5--5--7-5-------------------


Ab -----0-/-10-9-10--5-- hold..

Eb --3------------------

Home ] Up ] Our Lady Peace Clumsy Tab ] Our Lady Peace Naveed Tab ] [ Our Lady Peace Superman is Dead Tab ]

Looking For Canadian Actors Click Here

www.cctranslation.com

Click Here For Drums, Guitars, Banjos, Microphones, Violins, Timpani's or Pianos

All The Instruments at the Guaranteed Lowest Prices

Find your Favourite Drummer here at Every Drummer (dot) Com

Find Your Favourite Guitarist here at Every Guitarist (dot) Com

Click Here For Sunglasses or here for Motorcycle Sunglasses