Rush Tom Sawyer Tab
Home ] Up ] Rush Working Man Tab ] [ Rush Tom Sawyer Tab ] Rush Closer To The Heart Tab ]
 

Rush Tom Sawyer Tab

Rush Tom Sawyer Tab

Free Rush Guitar Tab Videos Click Here

Tom Sawyer Tab

---------X--------X-------(0)---------X-
---------9--------7--------3----------5-
---------9--------7--------2----------5-  X 2
---------9--------7--------2----------5-
---------7--------5--------0----------3-
--0-0--0-----0-0------0-0------0-0--0---


-------------
-------------
-------------
-------------
--3--2---0---
-------------

Now repeat the first part, but strum the chords normally, and instead
of the C at the end, do this.

-------------------
-------------------
-------------------
-------------------
--3--2--0----------
-----------3--2--0-

Verse:

-----------------------------------------------------
-----------------------------------------------------
-----------------------------------------------------
--------------------------------2--------------------
-------------------0---0-----0-----3-----3--2---0----
--0---2---0--2--3---------3-----------3------------3-


Verse X 4

Then;

--0--2----------0-----------0-------0----0---
--0--2----------0---0-------0---0---0----0---
--2--4----4-----2---2---4---2---2---2----1---
--2--4----4-----2---0---4---2---0---2----2---
--0--2----2-----0-------2---0-------0----2---
--------------------3-----------3--------0---

bridge:

8 times;

--5--2--3-----2-----5--2--4-----2--
-----------5-----3-----------5-----
-----------------------------------
-----------------------------------
-----------------------------------
-----------------------------------

3 times

--------------------------------------
--------------------------------------
--2-----1-----------2-----1-----------
-----4-----2--4--0-----4-----2--4-----
-----------------------------------2--
--------------------------------------

outro:

--5--2--4-----2----------------------5--2--4-----2--------------------------
-----------5----------------------------------5-----3--5--------------------
----------------------------------------------------------------------------
------------------------2--------4------------------------------2--------4--
---------------------2--------4------------------------------2--------4-----
------------------0--------2------------------------------0--------2--------
Tabbed by: Cory Green  
Used Tab Symbols
_____________________
 h  = Hammer On
 p  = Pull Off
 ~  = Sustain
 v  = Vibrato
 w  = Wide Vibrato
 b  = Bend Up
 hb  = Bend Halfway
 /  = Slide Up
 \  = Slide Down
 *  = Trill
 x  = Muted Note
 h  = Harmonic
 t  = Right Hand Tap
 :  = Let Ring
_____________________

Guitar
e|------------------------------------------------------|
B|------------------------------------------------------|
G|---------9----------7----------2----------5-----------|
D|---------9----------7----------2----------5-----------|
A|---------7----------5----------0----------3-----------|
E|-0-0--0-----0-0--0-----0-0--0-----0-0--0--------------|

e|------------------------------------------------------|
B|------------------------------------------------------|
G|------------------------------------------------------|
D|-----------------------------2-2-2--------------------|
A|----------------------0-0-0---------3-3-3--2-2-2-0-0-0|
E|-0-0-0--2-2-2--3-3-3----------------------------------|

Home ] Up ] Rush Working Man Tab ] [ Rush Tom Sawyer Tab ] Rush Closer To The Heart Tab ]

Looking For Canadian Actors Click Here

www.cctranslation.com

Click Here For Drums, Guitars, Banjos, Microphones, Violins, Timpani's or Pianos

All The Instruments at the Guaranteed Lowest Prices

Find your Favourite Drummer here at Every Drummer (dot) Com

Find Your Favourite Guitarist here at Every Guitarist (dot) Com

Click Here For Sunglasses or here for Motorcycle Sunglasses