Sloan If It Feels Good Do It Tab
Home ] Up ] [ Sloan If It Feels Good Do It Tab ] Sloan Money City Maniacs Tab ] Sloan The Other Man Tab ]
 

Sloan If It Feels Good Do It Tab

Free Sloan Guitar Tab Videos
Click Here

Sloan If It Feels Good Do It Tab

If It Feels Good Do It - Sloan

Tabbed by Adam Bishop

The strange thing about this song is that Patrick plays it in Drop D,
while Jay plays
it in standard tuning (I know this for sure because you can tell by
their video; I could
also see it in the Muchmusic performance, and since I happened to be
pretty close
to him during a concert recently, I actually saw him retune the string
afterwards).
So let's say Jay's guitar is guitar 1, and Patrick's is guitar 2.

C#5 - x466xx
E5  - 022xxx (Jay) or 222xxx (Patrick)
B5  - x244xx
F#5 - 244xxx (Jay) or 444xxx (Patrick)

"This song is dedicated to you, cause this song is for people who know
what rock
and roll is about!"

   Guitar 1:
E|-------------------------------------------------------
B|-------------------------------------------------------
G|-------------------------------------------------------
D|--6----------------------------------------------------
A|--6--6--6--6--6--6--6--6--6p5--5--5--5--5--5--5--5--5--
E|--4--4--4--4--4--4--4--4--4----4--4--4--4--4--4--4--4--
 |
 | Guitar 2:
E|-------------------------------------------------------
B|-------------------------------------------------------
G|--8-----------------------8p7--------------------------
D|--6-----------------------6----------------------------
A|--6-----------------------6----------------------------
D|--6-----------------------6----------------------------

   Guitar 1:
E|--------------------------------------------------
B|--------------------------------------------------
G|--------------------------5--5--5--5--5--5--5--5--
D|--6--6--6--6--6--6--6--6--6--6--6--6--6--6--6--6--
A|--6--6--6--6--6--6--6--6--6--6--6--6--6--6--6--6--
E|--4--4--4--4--4--4--4--4--4--4--4--4--4--4--4--4--
 |
 | Guitar 2:
E|--------------------------------------------------
B|--------------------------------------------------
G|--------------------------5--5--5--5--5--5--5--5--
D|--6-----------------------6--6--6--6--6--6--6--6--
A|--6-----------------------6--6--6--6--6--6--6--6--
E|--6-----------------------6--6--6--6--6--6--6--6-


Riff 1:
E|---------------------------------------
B|---------------------------------------
G|--6--6--4--6----6----4--6--6--0--------
D|--6--6--4--6----6----4--6--6--0--4--2--
A|--4--4--4--4----4----4--4--4--0--4--2--
E|---------------------------------2--0-
(Of course, when Patrick comes in, he plays 444xxx and 222xxx)

Riff 1 (x4)

C#5                    E5
I can't invest my time
B5                                        G#5
I've tried it all and I'm tired of trying
C#5                                     E5
You think you've got it all figured out
B5                                  G#5 (riff 2)
And everything you think it's about

Jay plays G#5 but Patrick plays Riff 2:
E|-----------------
B|-----------------
G|-----------------
D|-----------2-----
A|-----2--4-----4--
D|--4--------------

When you found yourself finally released
You hit the ground and kept running east
And now it's all catching up to you
As these things usually do (no riff 2 this time)

(Play each chord once)
C#5              E5
Saw it all and I can't deny
       B5                 G#5
It's a hard life living a lie

Riff 1

Guitar 1, I think, fades in with C#5 and ends this way:
E|--------------------------
B|--------------------------
G|--6--6--6--6--6--6--4-----
D|--6--6--6--6--6--6--4--4--
A|--4--4--4--4--4--4--2--4--
E|-----------------------2-

Chorus (same as verse chords):
If it feels good do it even if you shouldn't
Don't let people mess you around
Feels good do it even if you shouldn't
Nobody can mess you around

Solo (with verse chords)

Saw it all and I can't deny
It's a hard life living a lie

(drums)

Bass riff:
G|-------------------------------------
D|-------------------------------------
A|--4--4--2--4----4-----2--3--4--------
E|-------------------4-----------2--0--

This is repeated by guitar 1, at least, although both guitars play
F#5-E5 power
chords at the end

Tried it all and I'm tired of trying
You're running away

Things would have been different
If you decided to stay
You can't wear your heart on your sleeve
If you're just going to leave
I can't invest my time
I've tried it all and I'm tired of trying

Saw it all and I can't deny
It's a hard life living a lie

On the "...living a lie" part, go to Riff 1 instead of G#5

Riff 1 (x2)

Verse chords (x2)

For the rest of the song, hit the verse chords once, with vibrato on the
G#5,
and fade out

Home ] Up ] [ Sloan If It Feels Good Do It Tab ] Sloan Money City Maniacs Tab ] Sloan The Other Man Tab ]

Looking For Canadian Actors Click Here

www.cctranslation.com

Click Here For Drums, Guitars, Banjos, Microphones, Violins, Timpani's or Pianos

All The Instruments at the Guaranteed Lowest Prices

Find your Favourite Drummer here at Every Drummer (dot) Com

Find Your Favourite Guitarist here at Every Guitarist (dot) Com

Click Here For Sunglasses or here for Motorcycle Sunglasses